ISO-10303-21;
HEADER;
/* Generated by software containing ST-Developer
 * from STEP Tools, Inc. (www.steptools.com) 
 */

FILE_DESCRIPTION(
/* description */ (''),
/* implementation_level */ '2;1');

FILE_NAME(
/* name */ 
'C:/Users/dshur/OneDrive/Desktop/design and code/ring for water bottle
 .step',
/* time_stamp */ '2020-08-09T02:54:42+03:00',
/* author */ (''),
/* organization */ (''),
/* preprocessor_version */ 'ST-DEVELOPER v18',
/* originating_system */ 'Autodesk Translation Framework v8.12.0.6',
/* authorisation */ '');

FILE_SCHEMA (('AUTOMOTIVE_DESIGN { 1 0 10303 214 3 1 1 }'));
ENDSEC;

DATA;
#10=MECHANICAL_DESIGN_GEOMETRIC_PRESENTATION_REPRESENTATION('',(#13),#106);
#11=SHAPE_REPRESENTATION_RELATIONSHIP('SRR','None',#113,#12);
#12=ADVANCED_BREP_SHAPE_REPRESENTATION('',(#14),#105);
#13=STYLED_ITEM('',(#122),#14);
#14=MANIFOLD_SOLID_BREP('Body1',#53);
#15=FACE_BOUND('',#26,.T.);
#16=PLANE('',#73);
#17=LINE('',#100,#18);
#18=VECTOR('',#86,36.);
#19=CYLINDRICAL_SURFACE('',#71,36.);
#20=FACE_OUTER_BOUND('',#23,.T.);
#21=FACE_OUTER_BOUND('',#24,.T.);
#22=FACE_OUTER_BOUND('',#25,.T.);
#23=EDGE_LOOP('',(#39,#40,#41,#42));
#24=EDGE_LOOP('',(#43,#44,#45,#46));
#25=EDGE_LOOP('',(#47));
#26=EDGE_LOOP('',(#48));
#27=CIRCLE('',#68,36.);
#28=CIRCLE('',#69,3.);
#29=CIRCLE('',#70,39.0000005811453);
#30=CIRCLE('',#72,36.);
#31=VERTEX_POINT('',#93);
#32=VERTEX_POINT('',#95);
#33=VERTEX_POINT('',#99);
#34=EDGE_CURVE('',#31,#31,#27,.T.);
#35=EDGE_CURVE('',#31,#32,#28,.T.);
#36=EDGE_CURVE('',#32,#32,#29,.T.);
#37=EDGE_CURVE('',#31,#33,#17,.T.);
#38=EDGE_CURVE('',#33,#33,#30,.T.);
#39=ORIENTED_EDGE('',*,*,#34,.T.);
#40=ORIENTED_EDGE('',*,*,#35,.T.);
#41=ORIENTED_EDGE('',*,*,#36,.T.);
#42=ORIENTED_EDGE('',*,*,#35,.F.);
#43=ORIENTED_EDGE('',*,*,#34,.F.);
#44=ORIENTED_EDGE('',*,*,#37,.T.);
#45=ORIENTED_EDGE('',*,*,#38,.T.);
#46=ORIENTED_EDGE('',*,*,#37,.F.);
#47=ORIENTED_EDGE('',*,*,#36,.F.);
#48=ORIENTED_EDGE('',*,*,#38,.F.);
#49=TOROIDAL_SURFACE('',#67,36.0000005811453,3.);
#50=ADVANCED_FACE('',(#20),#49,.T.);
#51=ADVANCED_FACE('',(#21),#19,.F.);
#52=ADVANCED_FACE('',(#22,#15),#16,.F.);
#53=CLOSED_SHELL('',(#50,#51,#52));
#54=DERIVED_UNIT_ELEMENT(#56,1.);
#55=DERIVED_UNIT_ELEMENT(#108,3.);
#56=(
MASS_UNIT()
NAMED_UNIT(*)
SI_UNIT(.KILO.,.GRAM.)
);
#57=DERIVED_UNIT((#54,#55));
#58=MEASURE_REPRESENTATION_ITEM('density measure',
POSITIVE_RATIO_MEASURE(7850.),#57);
#59=PROPERTY_DEFINITION_REPRESENTATION(#64,#61);
#60=PROPERTY_DEFINITION_REPRESENTATION(#65,#62);
#61=REPRESENTATION('material name',(#63),#105);
#62=REPRESENTATION('density',(#58),#105);
#63=DESCRIPTIVE_REPRESENTATION_ITEM('Steel','Steel');
#64=PROPERTY_DEFINITION('material property','material name',#115);
#65=PROPERTY_DEFINITION('material property','density of part',#115);
#66=AXIS2_PLACEMENT_3D('placement',#91,#74,#75);
#67=AXIS2_PLACEMENT_3D('',#92,#76,#77);
#68=AXIS2_PLACEMENT_3D('',#94,#78,#79);
#69=AXIS2_PLACEMENT_3D('',#96,#80,#81);
#70=AXIS2_PLACEMENT_3D('',#97,#82,#83);
#71=AXIS2_PLACEMENT_3D('',#98,#84,#85);
#72=AXIS2_PLACEMENT_3D('',#101,#87,#88);
#73=AXIS2_PLACEMENT_3D('',#102,#89,#90);
#74=DIRECTION('axis',(0.,0.,1.));
#75=DIRECTION('refdir',(1.,0.,0.));
#76=DIRECTION('center_axis',(0.,0.,1.));
#77=DIRECTION('ref_axis',(1.,0.,0.));
#78=DIRECTION('center_axis',(0.,0.,-1.));
#79=DIRECTION('ref_axis',(1.,0.,0.));
#80=DIRECTION('center_axis',(1.22464679914735E-16,-1.,0.));
#81=DIRECTION('ref_axis',(-1.,-1.22464679914735E-16,0.));
#82=DIRECTION('center_axis',(0.,0.,1.));
#83=DIRECTION('ref_axis',(1.,0.,0.));
#84=DIRECTION('center_axis',(0.,0.,1.));
#85=DIRECTION('ref_axis',(1.,0.,0.));
#86=DIRECTION('',(0.,0.,-1.));
#87=DIRECTION('center_axis',(0.,0.,-1.));
#88=DIRECTION('ref_axis',(1.,0.,0.));
#89=DIRECTION('center_axis',(0.,0.,1.));
#90=DIRECTION('ref_axis',(1.,0.,0.));
#91=CARTESIAN_POINT('',(0.,0.,0.));
#92=CARTESIAN_POINT('Origin',(0.,0.,0.));
#93=CARTESIAN_POINT('',(-36.,-4.40872847693047E-15,3.));
#94=CARTESIAN_POINT('Origin',(0.,0.,3.));
#95=CARTESIAN_POINT('',(-39.0000005811453,-4.77612258784445E-15,0.));
#96=CARTESIAN_POINT('Origin',(-36.0000005811453,-4.40872854810024E-15,0.));
#97=CARTESIAN_POINT('Origin',(0.,0.,0.));
#98=CARTESIAN_POINT('Origin',(0.,0.,0.));
#99=CARTESIAN_POINT('',(-36.,-4.40872847693047E-15,0.));
#100=CARTESIAN_POINT('',(-36.,-4.40872847693047E-15,0.));
#101=CARTESIAN_POINT('Origin',(0.,0.,0.));
#102=CARTESIAN_POINT('Origin',(0.,0.,0.));
#103=UNCERTAINTY_MEASURE_WITH_UNIT(LENGTH_MEASURE(0.01),#107,
'DISTANCE_ACCURACY_VALUE',
'Maximum model space distance between geometric entities at asserted c
onnectivities');
#104=UNCERTAINTY_MEASURE_WITH_UNIT(LENGTH_MEASURE(0.01),#107,
'DISTANCE_ACCURACY_VALUE',
'Maximum model space distance between geometric entities at asserted c
onnectivities');
#105=(
GEOMETRIC_REPRESENTATION_CONTEXT(3)
GLOBAL_UNCERTAINTY_ASSIGNED_CONTEXT((#103))
GLOBAL_UNIT_ASSIGNED_CONTEXT((#107,#109,#110))
REPRESENTATION_CONTEXT('','3D')
);
#106=(
GEOMETRIC_REPRESENTATION_CONTEXT(3)
GLOBAL_UNCERTAINTY_ASSIGNED_CONTEXT((#104))
GLOBAL_UNIT_ASSIGNED_CONTEXT((#107,#109,#110))
REPRESENTATION_CONTEXT('','3D')
);
#107=(
LENGTH_UNIT()
NAMED_UNIT(*)
SI_UNIT(.MILLI.,.METRE.)
);
#108=(
LENGTH_UNIT()
NAMED_UNIT(*)
SI_UNIT($,.METRE.)
);
#109=(
NAMED_UNIT(*)
PLANE_ANGLE_UNIT()
SI_UNIT($,.RADIAN.)
);
#110=(
NAMED_UNIT(*)
SI_UNIT($,.STERADIAN.)
SOLID_ANGLE_UNIT()
);
#111=SHAPE_DEFINITION_REPRESENTATION(#112,#113);
#112=PRODUCT_DEFINITION_SHAPE('',$,#115);
#113=SHAPE_REPRESENTATION('',(#66),#105);
#114=PRODUCT_DEFINITION_CONTEXT('part definition',#119,'design');
#115=PRODUCT_DEFINITION('(Unsaved)','(Unsaved)',#116,#114);
#116=PRODUCT_DEFINITION_FORMATION('',$,#121);
#117=PRODUCT_RELATED_PRODUCT_CATEGORY('(Unsaved)','(Unsaved)',(#121));
#118=APPLICATION_PROTOCOL_DEFINITION('international standard',
'automotive_design',2009,#119);
#119=APPLICATION_CONTEXT(
'Core Data for Automotive Mechanical Design Process');
#120=PRODUCT_CONTEXT('part definition',#119,'mechanical');
#121=PRODUCT('(Unsaved)','(Unsaved)',$,(#120));
#122=PRESENTATION_STYLE_ASSIGNMENT((#123));
#123=SURFACE_STYLE_USAGE(.BOTH.,#124);
#124=SURFACE_SIDE_STYLE('',(#125));
#125=SURFACE_STYLE_FILL_AREA(#126);
#126=FILL_AREA_STYLE('Steel - Satin',(#127));
#127=FILL_AREA_STYLE_COLOUR('Steel - Satin',#128);
#128=COLOUR_RGB('Steel - Satin',0.627450980392157,0.627450980392157,0.627450980392157);
ENDSEC;
END-ISO-10303-21;
